0
SECTION
2
HEADER
9
$INSUNITS
70
4
9
$ACADVER
1
AC1014
9
$HANDSEED
5
FFFF
0
ENDSEC
0
SECTION
2
TABLES
0
TABLE
2
VPORT
5
8
100
AcDbSymbolTable
0
ENDTAB
0
TABLE
2
LTYPE
5
5
100
AcDbSymbolTable
0
LTYPE
5
14
100
AcDbSymbolTableRecord
100
AcDbLinetypeTableRecord
2
BYBLOCK
70
0
0
LTYPE
5
15
100
AcDbSymbolTableRecord
100
AcDbLinetypeTableRecord
2
BYLAYER
70
0
0
ENDTAB
0
TABLE
2
LAYER
5
2
100
AcDbSymbolTable
70
2
0
LAYER
5
50
100
AcDbSymbolTableRecord
100
AcDbLayerTableRecord
2
0
70
0
6
CONTINUOUS
0
ENDTAB
0
TABLE
2
STYLE
5
3
100
AcDbSymbolTable
70
1
0
STYLE
5
11
100
AcDbSymbolTableRecord
100
AcDbTextStyleTableRecord
2
STANDARD
70
0
0
ENDTAB
0
TABLE
2
VIEW
5
6
100
AcDbSymbolTable
70
0
0
ENDTAB
0
TABLE
2
UCS
5
7
100
AcDbSymbolTable
70
0
0
ENDTAB
0
TABLE
2
APPID
5
9
100
AcDbSymbolTable
70
2
0
APPID
5
12
100
AcDbSymbolTableRecord
100
AcDbRegAppTableRecord
2
ACAD
70
0
0
ENDTAB
0
TABLE
2
DIMSTYLE
5
A
100
AcDbSymbolTable
70
1
0
ENDTAB
0
TABLE
2
BLOCK_RECORD
5
1
100
AcDbSymbolTable
70
1
0
BLOCK_RECORD
5
1F
100
AcDbSymbolTableRecord
100
AcDbBlockTableRecord
2
*MODEL_SPACE
0
BLOCK_RECORD
5
1B
100
AcDbSymbolTableRecord
100
AcDbBlockTableRecord
2
*PAPER_SPACE
0
ENDTAB
0
ENDSEC
0
SECTION
2
BLOCKS
0
BLOCK
5
20
100
AcDbEntity
100
AcDbBlockBegin
2
*MODEL_SPACE
0
ENDBLK
5
21
100
AcDbEntity
100
AcDbBlockEnd
0
BLOCK
5
1C
100
AcDbEntity
100
AcDbBlockBegin
2
*PAPER_SPACE
0
ENDBLK
5
1D
100
AcDbEntity
100
AcDbBlockEnd
0
ENDSEC
0
SECTION
2
ENTITIES
0
LINE
5
100
100
AcDbEntity
8
0
100
AcDbLine
10
0
20
0
30
0
11
34
21
-1.0785207688568521e-31
31
0
0
LINE
5
101
100
AcDbEntity
8
0
100
AcDbLine
10
0
20
53
30
0
11
8.0018678556205494
21
53
31
0
0
LINE
5
102
100
AcDbEntity
8
0
100
AcDbLine
10
0
20
15
30
0
11
8.0018678556110405
21
15
31
0
0
LINE
5
103
100
AcDbEntity
8
0
100
AcDbLine
10
10.000000007842713
20
16.999999024366087
30
0
11
10.000000007842713
21
51.000000991319354
31
0
0
ARC
5
104
100
AcDbEntity
8
0
100
AcDbCircle
10
8.0000001192092896
20
16.999999016523368
30
0
40
1.9999998886334236
100
AcDbArc
50
-90.053506717288371
51
0
0
ARC
5
105
100
AcDbEntity
8
0
100
AcDbCircle
10
8.0000001192092896
20
51.000000983476639
30
0
40
1.9999998886334236
100
AcDbArc
50
0
51
90.053506717560822
0
LWPOLYLINE
5
106
100
AcDbEntity
8
0
100
AcDbPolyline
90
12
70
1
43
0.0
10
19.404592119254346
20
2.8244772329287455
10
19.404592119254314
20
5.0120276497891068
10
21.592142536114661
20
5.0120276497891068
10
21.592142536114661
20
9.3871284835098265
10
19.404592119254318
20
9.387128483509823
10
19.404592119254318
20
11.574678769982016
10
25.967243369835401
20
11.574678900370188
10
25.967243369835401
20
9.3871284835098319
10
23.779692952975026
20
9.3871284835098319
10
23.779692952975033
20
5.0120276497891156
10
25.967243369835401
20
5.0120276497891139
10
25.967243369835401
20
2.8244772329287509
0
LINE
5
107
100
AcDbEntity
8
0
100
AcDbLine
10
13.972512092044946
20
11.500370347605845
30
0
11
11.532201362528461
21
4.9423434606864678
31
0
0
LINE
5
108
100
AcDbEntity
8
0
100
AcDbLine
10
6.7483156370692532
20
11.500370347605845
30
0
11
10.000916093544149
21
2.7594174074878017
31
0
0
LINE
5
109
100
AcDbEntity
8
0
100
AcDbLine
10
9.0918906330120102
20
11.500370347605845
30
0
11
11.532201362528461
21
4.9423434606864678
31
0
0
LINE
5
110
100
AcDbEntity
8
0
100
AcDbLine
10
16.316087087987675
20
11.500370347605845
30
0
11
13.972512092044946
21
11.500370347605845
31
0
0
LINE
5
111
100
AcDbEntity
8
0
100
AcDbLine
10
6.7483156370692532
20
11.500370347605845
30
0
11
9.0918906330120102
21
11.500370347605845
31
0
0
LINE
5
112
100
AcDbEntity
8
0
100
AcDbLine
10
16.316087087987675
20
11.500370347605845
30
0
11
13.063486631512829
21
2.7594174074878195
31
0
0
LINE
5
113
100
AcDbEntity
8
0
100
AcDbLine
10
13.063486631512829
20
2.7594174074878195
30
0
11
10.000916093544149
21
2.7594174074878017
31
0
0
LINE
5
114
100
AcDbEntity
8
0
100
AcDbLine
10
34
20
-1.0785207688568521e-31
30
0
11
34.000000000000007
21
62
31
0
0
LINE
5
115
100
AcDbEntity
8
0
100
AcDbLine
10
0
20
15
30
0
11
0
21
0
31
0
0
LINE
5
116
100
AcDbEntity
8
0
100
AcDbLine
10
34.000000000000007
20
62
30
0
11
0
21
62
31
0
0
LINE
5
117
100
AcDbEntity
8
0
100
AcDbLine
10
0
20
62
30
0
11
0
21
53
31
0
0
ENDSEC
0
SECTION
2
OBJECTS
0
DICTIONARY
5
C
100
AcDbDictionary
3
ACAD_GROUP
350
D
3
ACAD_MLINESTYLE
350
17
0
DICTIONARY
5
D
100
AcDbDictionary
0
DICTIONARY
5
1A
330
C
100
AcDbDictionary
0
DICTIONARY
5
17
100
AcDbDictionary
0
ENDSEC
0
EOF
